ISO-10303-21;
HEADER;
FILE_DESCRIPTION (( 'STEP AP214' ),
    '1' );
FILE_NAME ('2089521.stp',
    '2022-11-29T08:39:26',
    ( '' ),
    ( '' ),
    'SwSTEP 2.0',
    'SolidWorks 2020',
    '' );
FILE_SCHEMA (( 'AUTOMOTIVE_DESIGN' ));
ENDSEC;

DATA;
#1 =( GEOMETRIC_REPRESENTATION_CONTEXT ( 3 ) GLOBAL_UNCERTAINTY_ASSIGNED_CONTEXT ( ( #145 ) ) GLOBAL_UNIT_ASSIGNED_CONTEXT ( ( #207, #129, #36 ) ) REPRESENTATION_CONTEXT ( 'NONE', 'WORKASPACE' ) );
#2 = AXIS2_PLACEMENT_3D ( 'NONE', #232, #213, #150 ) ;
#3 = PRODUCT_DEFINITION_CONTEXT ( 'detailed design', #79, 'design' ) ;
#4 = EDGE_CURVE ( 'NONE', #228, #228, #215, .T. ) ;
#5 = PLANE ( 'NONE',  #106 ) ;
#6 = DIRECTION ( 'NONE',  ( -1.000000000000000000, 0.000000000000000000, 0.000000000000000000 ) ) ;
#7 = DIRECTION ( 'NONE',  ( -1.000000000000000000, 0.000000000000000000, 0.000000000000000000 ) ) ;
#8 = PRESENTATION_STYLE_ASSIGNMENT (( #227 ) ) ;
#9 = DIRECTION ( 'NONE',  ( -1.836970198721027900E-17, -1.000000000000000000, 0.000000000000000000 ) ) ;
#10 = PRODUCT_CONTEXT ( 'NONE', #34, 'mechanical' ) ;
#11 = DIRECTION ( 'NONE',  ( -1.000000000000000000, 0.000000000000000000, 0.000000000000000000 ) ) ;
#12 = DIRECTION ( 'NONE',  ( 0.000000000000000000, 0.000000000000000000, -1.000000000000000000 ) ) ;
#13 = FACE_BOUND ( 'NONE', #189, .T. ) ;
#14 = ADVANCED_FACE ( 'NONE', ( #76, #168 ), #154, .T. ) ;
#15 = DIRECTION ( 'NONE',  ( 1.836970198721027900E-17, 1.000000000000000000, -0.000000000000000000 ) ) ;
#16 = DIRECTION ( 'NONE',  ( 1.836970198721027900E-17, 1.000000000000000000, -0.000000000000000000 ) ) ;
#17 = DIRECTION ( 'NONE',  ( -1.000000000000000000, 0.000000000000000000, 0.000000000000000000 ) ) ;
#18 = ORIENTED_EDGE ( 'NONE', *, *, #141, .F. ) ;
#19 = EDGE_LOOP ( 'NONE', ( #78 ) ) ;
#20 = FACE_OUTER_BOUND ( 'NONE', #131, .T. ) ;
#21 = VERTEX_POINT ( 'NONE', #217 ) ;
#22 =( GEOMETRIC_REPRESENTATION_CONTEXT ( 3 ) GLOBAL_UNCERTAINTY_ASSIGNED_CONTEXT ( ( #67 ) ) GLOBAL_UNIT_ASSIGNED_CONTEXT ( ( #114, #101, #54 ) ) REPRESENTATION_CONTEXT ( 'NONE', 'WORKASPACE' ) );
#23 = CARTESIAN_POINT ( 'NONE',  ( 0.000000000000000000, 10.00000000000000000, 0.000000000000000000 ) ) ;
#24 = FACE_OUTER_BOUND ( 'NONE', #130, .T. ) ;
#25 = ADVANCED_FACE ( 'NONE', ( #39, #117 ), #5, .F. ) ;
#26 = PRESENTATION_STYLE_ASSIGNMENT (( #142 ) ) ;
#27 = ADVANCED_FACE ( 'NONE', ( #234, #59 ), #134, .F. ) ;
#28 = UNCERTAINTY_MEASURE_WITH_UNIT (LENGTH_MEASURE( 1.000000000000000082E-05 ), #104, 'distance_accuracy_value', 'NONE');
#29 = PRODUCT_RELATED_PRODUCT_CATEGORY ( 'part', '', ( #242 ) ) ;
#30 = ORIENTED_EDGE ( 'NONE', *, *, #80, .T. ) ;
#31 = PRESENTATION_LAYER_ASSIGNMENT (  '', '', ( #110 ) ) ;
#32 = MECHANICAL_DESIGN_GEOMETRIC_PRESENTATION_REPRESENTATION (  '', ( #184 ), #22 ) ;
#33 = CARTESIAN_POINT ( 'NONE',  ( -8.999999999999998224, 7.000000000000000888, 0.000000000000000000 ) ) ;
#34 = APPLICATION_CONTEXT ( 'automotive_design' ) ;
#35 = ORIENTED_EDGE ( 'NONE', *, *, #74, .T. ) ;
#36 =( NAMED_UNIT ( * ) SI_UNIT ( $, .STERADIAN. ) SOLID_ANGLE_UNIT ( ) );
#37 = ORIENTED_EDGE ( 'NONE', *, *, #80, .F. ) ;
#38 = FILL_AREA_STYLE ('',( #192 ) ) ;
#39 = FACE_BOUND ( 'NONE', #113, .T. ) ;
#40 = AXIS2_PLACEMENT_3D ( 'NONE', #161, #65, #218 ) ;
#41 = FACE_BOUND ( 'NONE', #191, .T. ) ;
#42 = AXIS2_PLACEMENT_3D ( 'NONE', #149, #96, #6 ) ;
#43 = DIRECTION ( 'NONE',  ( 1.000000000000000000, -1.836970198721027900E-17, 0.000000000000000000 ) ) ;
#44 = ADVANCED_FACE ( 'NONE', ( #41, #243 ), #160, .T. ) ;
#45 =( LENGTH_UNIT ( ) NAMED_UNIT ( * ) SI_UNIT ( .MILLI., .METRE. ) );
#46 = AXIS2_PLACEMENT_3D ( 'NONE', #212, #16, #17 ) ;
#47 = CARTESIAN_POINT ( 'NONE',  ( 1.836970198721028455E-16, 10.00000000000000178, 0.000000000000000000 ) ) ;
#48 = SURFACE_SIDE_STYLE ('',( #220 ) ) ;
#49 = DIRECTION ( 'NONE',  ( 1.836970198721027900E-17, 1.000000000000000000, -0.000000000000000000 ) ) ;
#50 = APPLICATION_PROTOCOL_DEFINITION ( 'draft international standard', 'automotive_design', 1998, #34 ) ;
#51 = DIRECTION ( 'NONE',  ( 1.836970198721027900E-17, 1.000000000000000000, -0.000000000000000000 ) ) ;
#52 = PRESENTATION_LAYER_ASSIGNMENT (  '', '', ( #194 ) ) ;
#53 = ORIENTED_EDGE ( 'NONE', *, *, #141, .T. ) ;
#54 =( NAMED_UNIT ( * ) SI_UNIT ( $, .STERADIAN. ) SOLID_ANGLE_UNIT ( ) );
#55 = EDGE_LOOP ( 'NONE', ( #209 ) ) ;
#56 = FACE_OUTER_BOUND ( 'NONE', #230, .T. ) ;
#57 = EDGE_LOOP ( 'NONE', ( #37 ) ) ;
#58 = DIRECTION ( 'NONE',  ( 1.836970198721027900E-17, 1.000000000000000000, -0.000000000000000000 ) ) ;
#59 = FACE_OUTER_BOUND ( 'NONE', #95, .T. ) ;
#60 = AXIS2_PLACEMENT_3D ( 'NONE', #23, #121, #118 ) ;
#61 = MECHANICAL_DESIGN_GEOMETRIC_PRESENTATION_REPRESENTATION (  '', ( #169 ), #190 ) ;
#62 = APPLICATION_PROTOCOL_DEFINITION ( 'draft international standard', 'automotive_design', 1998, #79 ) ;
#63 =( LENGTH_UNIT ( ) NAMED_UNIT ( * ) SI_UNIT ( .MILLI., .METRE. ) );
#64 = DIRECTION ( 'NONE',  ( 1.836970198721027900E-17, 1.000000000000000000, -0.000000000000000000 ) ) ;
#65 = DIRECTION ( 'NONE',  ( -1.836970198721027900E-17, -1.000000000000000000, 0.000000000000000000 ) ) ;
#66 = CARTESIAN_POINT ( 'NONE',  ( 1.285879139104719746E-16, 7.000000000000000888, 0.000000000000000000 ) ) ;
#67 = UNCERTAINTY_MEASURE_WITH_UNIT (LENGTH_MEASURE( 1.000000000000000082E-05 ), #114, 'distance_accuracy_value', 'NONE');
#68 = AXIS2_PLACEMENT_3D ( 'NONE', #176, #174, #7 ) ;
#69 = SURFACE_STYLE_FILL_AREA ( #38 ) ;
#70 = EDGE_LOOP ( 'NONE', ( #111 ) ) ;
#71 = FACE_OUTER_BOUND ( 'NONE', #19, .T. ) ;
#72 = AXIS2_PLACEMENT_3D ( 'NONE', #132, #241, #11 ) ;
#73 = ORIENTED_EDGE ( 'NONE', *, *, #4, .T. ) ;
#74 = EDGE_CURVE ( 'NONE', #151, #151, #81, .T. ) ;
#75 =( GEOMETRIC_REPRESENTATION_CONTEXT ( 3 ) GLOBAL_UNCERTAINTY_ASSIGNED_CONTEXT ( ( #225 ) ) GLOBAL_UNIT_ASSIGNED_CONTEXT ( ( #63, #138, #182 ) ) REPRESENTATION_CONTEXT ( 'NONE', 'WORKASPACE' ) );
#76 = FACE_OUTER_BOUND ( 'NONE', #171, .T. ) ;
#77 = VERTEX_POINT ( 'NONE', #119 ) ;
#78 = ORIENTED_EDGE ( 'NONE', *, *, #127, .F. ) ;
#79 = APPLICATION_CONTEXT ( 'automotive_design' ) ;
#80 = EDGE_CURVE ( 'NONE', #77, #77, #173, .T. ) ;
#81 = CIRCLE ( 'NONE', #72, 10.00000000000000178 ) ;
#82 = PRESENTATION_LAYER_ASSIGNMENT (  '', '', ( #184 ) ) ;
#83 =( NAMED_UNIT ( * ) SI_UNIT ( $, .STERADIAN. ) SOLID_ANGLE_UNIT ( ) );
#84 = DIRECTION ( 'NONE',  ( 1.836970198721027900E-17, 1.000000000000000000, -0.000000000000000000 ) ) ;
#85 = PRESENTATION_STYLE_ASSIGNMENT (( #181 ) ) ;
#86 = CYLINDRICAL_SURFACE ( 'NONE', #226, 10.00000000000000178 ) ;
#87 = AXIS2_PLACEMENT_3D ( 'NONE', #89, #15, #244 ) ;
#88 = CARTESIAN_POINT ( 'NONE',  ( 0.000000000000000000, 0.000000000000000000, 0.000000000000000000 ) ) ;
#89 = CARTESIAN_POINT ( 'NONE',  ( 8.999999999999998224, 7.000000000000000888, 0.000000000000000000 ) ) ;
#90 = DIRECTION ( 'NONE',  ( -1.000000000000000000, 0.000000000000000000, 0.000000000000000000 ) ) ;
#91 = EDGE_CURVE ( 'NONE', #197, #197, #133, .T. ) ;
#92 = UNCERTAINTY_MEASURE_WITH_UNIT (LENGTH_MEASURE( 1.000000000000000082E-05 ), #45, 'distance_accuracy_value', 'NONE');
#93 = AXIS2_PLACEMENT_3D ( 'NONE', #195, #58, #158 ) ;
#94 = SURFACE_SIDE_STYLE ('',( #69 ) ) ;
#95 = EDGE_LOOP ( 'NONE', ( #18 ) ) ;
#96 = DIRECTION ( 'NONE',  ( 1.836970198721027900E-17, 1.000000000000000000, -0.000000000000000000 ) ) ;
#97 = PRODUCT_DEFINITION_FORMATION_WITH_SPECIFIED_SOURCE ( 'ANY', '', #242, .NOT_KNOWN. ) ;
#98 = ORIENTED_EDGE ( 'NONE', *, *, #204, .T. ) ;
#99 = CARTESIAN_POINT ( 'NONE',  ( 0.000000000000000000, 0.000000000000000000, -0.000000000000000000 ) ) ;
#100 = ORIENTED_EDGE ( 'NONE', *, *, #124, .T. ) ;
#101 =( NAMED_UNIT ( * ) PLANE_ANGLE_UNIT ( ) SI_UNIT ( $, .RADIAN. ) );
#102 = SURFACE_SIDE_STYLE ('',( #221 ) ) ;
#103 = CARTESIAN_POINT ( 'NONE',  ( -10.00000000000000178, 1.836970198721028208E-16, 0.000000000000000000 ) ) ;
#104 =( LENGTH_UNIT ( ) NAMED_UNIT ( * ) SI_UNIT ( .MILLI., .METRE. ) );
#105 = DIRECTION ( 'NONE',  ( -1.000000000000000000, 0.000000000000000000, 0.000000000000000000 ) ) ;
#106 = AXIS2_PLACEMENT_3D ( 'NONE', #193, #9, #43 ) ;
#107 = CARTESIAN_POINT ( 'NONE',  ( 1.836970198721027715E-16, 9.999999999999998224, 0.000000000000000000 ) ) ;
#108 = AXIS2_PLACEMENT_3D ( 'NONE', #88, #157, #162 ) ;
#109 = AXIS2_PLACEMENT_3D ( 'NONE', #198, #214, #12 ) ;
#110 = STYLED_ITEM ( 'NONE', ( #26 ), #146 ) ;
#111 = ORIENTED_EDGE ( 'NONE', *, *, #4, .F. ) ;
#112 = PRODUCT_DEFINITION ( 'UNKNOWN', '', #97, #3 ) ;
#113 = EDGE_LOOP ( 'NONE', ( #208 ) ) ;
#114 =( LENGTH_UNIT ( ) NAMED_UNIT ( * ) SI_UNIT ( .MILLI., .METRE. ) );
#115 = ORIENTED_EDGE ( 'NONE', *, *, #91, .F. ) ;
#116 = CARTESIAN_POINT ( 'NONE',  ( -10.00000000000000178, 4.299999999999992717, 0.000000000000000000 ) ) ;
#117 = FACE_OUTER_BOUND ( 'NONE', #128, .T. ) ;
#118 = DIRECTION ( 'NONE',  ( 1.000000000000000000, 0.000000000000000000, 0.000000000000000000 ) ) ;
#119 = CARTESIAN_POINT ( 'NONE',  ( 0.000000000000000000, -1.469576158976823356E-15, -7.249999999999991118 ) ) ;
#120 = AXIS2_PLACEMENT_3D ( 'NONE', #99, #175, #186 ) ;
#121 = DIRECTION ( 'NONE',  ( -1.836970198721027900E-17, -1.000000000000000000, 0.000000000000000000 ) ) ;
#122 = SHAPE_DEFINITION_REPRESENTATION ( #203, #123 ) ;
#123 = ADVANCED_BREP_SHAPE_REPRESENTATION ( '2089521', ( #180, #108 ), #75 ) ;
#124 = EDGE_CURVE ( 'NONE', #21, #21, #202, .T. ) ;
#125 = FILL_AREA_STYLE ('',( #210 ) ) ;
#126 = EDGE_LOOP ( 'NONE', ( #187 ) ) ;
#127 = EDGE_CURVE ( 'NONE', #216, #216, #222, .T. ) ;
#128 = EDGE_LOOP ( 'NONE', ( #100 ) ) ;
#129 =( NAMED_UNIT ( * ) PLANE_ANGLE_UNIT ( ) SI_UNIT ( $, .RADIAN. ) );
#130 = EDGE_LOOP ( 'NONE', ( #115 ) ) ;
#131 = EDGE_LOOP ( 'NONE', ( #53 ) ) ;
#132 = CARTESIAN_POINT ( 'NONE',  ( 7.898971854500406998E-17, 4.299999999999992717, 0.000000000000000000 ) ) ;
#133 = CIRCLE ( 'NONE', #183, 12.00000000000000000 ) ;
#134 = PLANE ( 'NONE',  #144 ) ;
#135 = FILL_AREA_STYLE_COLOUR ( '', #206 ) ;
#136 =( GEOMETRIC_REPRESENTATION_CONTEXT ( 3 ) GLOBAL_UNCERTAINTY_ASSIGNED_CONTEXT ( ( #28 ) ) GLOBAL_UNIT_ASSIGNED_CONTEXT ( ( #104, #164, #140 ) ) REPRESENTATION_CONTEXT ( 'NONE', 'WORKASPACE' ) );
#137 = FACE_OUTER_BOUND ( 'NONE', #55, .T. ) ;
#138 =( NAMED_UNIT ( * ) PLANE_ANGLE_UNIT ( ) SI_UNIT ( $, .RADIAN. ) );
#139 = MECHANICAL_DESIGN_GEOMETRIC_PRESENTATION_REPRESENTATION (  '', ( #194 ), #1 ) ;
#140 =( NAMED_UNIT ( * ) SI_UNIT ( $, .STERADIAN. ) SOLID_ANGLE_UNIT ( ) );
#141 = EDGE_CURVE ( 'NONE', #237, #237, #205, .T. ) ;
#142 = SURFACE_STYLE_USAGE ( .BOTH. , #102 ) ;
#143 = CARTESIAN_POINT ( 'NONE',  ( 1.687229755494586730E-33, 9.184850993605141042E-17, 0.000000000000000000 ) ) ;
#144 = AXIS2_PLACEMENT_3D ( 'NONE', #143, #51, #223 ) ;
#145 = UNCERTAINTY_MEASURE_WITH_UNIT (LENGTH_MEASURE( 1.000000000000000082E-05 ), #207, 'distance_accuracy_value', 'NONE');
#146 = ADVANCED_FACE ( 'NONE', ( #137, #20 ), #86, .T. ) ;
#147 = CLOSED_SHELL ( 'NONE', ( #27, #146, #44, #233, #178, #14, #25, #224 ) ) ;
#148 = CIRCLE ( 'NONE', #42, 9.000000000000000000 ) ;
#149 = CARTESIAN_POINT ( 'NONE',  ( 9.735942053221449997E-17, 5.300000000000000711, 0.000000000000000000 ) ) ;
#150 = DIRECTION ( 'NONE',  ( -1.000000000000000000, 0.000000000000000000, 0.000000000000000000 ) ) ;
#151 = VERTEX_POINT ( 'NONE', #116 ) ;
#152 = ORIENTED_EDGE ( 'NONE', *, *, #124, .F. ) ;
#153 = FACE_OUTER_BOUND ( 'NONE', #211, .T. ) ;
#154 = CYLINDRICAL_SURFACE ( 'NONE', #2, 12.00000000000000000 ) ;
#155 = SURFACE_SIDE_STYLE ('',( #231 ) ) ;
#156 = ORIENTED_EDGE ( 'NONE', *, *, #204, .F. ) ;
#157 = DIRECTION ( 'NONE',  ( 0.000000000000000000, 0.000000000000000000, 1.000000000000000000 ) ) ;
#158 = DIRECTION ( 'NONE',  ( -1.000000000000000000, 1.836970198721027900E-17, 0.000000000000000000 ) ) ;
#159 = CARTESIAN_POINT ( 'NONE',  ( -9.000000000000000000, 5.300000000000000711, 0.000000000000000000 ) ) ;
#160 = CONICAL_SURFACE ( 'NONE', #40, 10.00000000000000178, 0.7853981633974457255 ) ;
#161 = CARTESIAN_POINT ( 'NONE',  ( 7.898971854500406998E-17, 4.299999999999992717, 0.000000000000000000 ) ) ;
#162 = DIRECTION ( 'NONE',  ( 1.000000000000000000, 0.000000000000000000, 0.000000000000000000 ) ) ;
#163 = FILL_AREA_STYLE_COLOUR ( '', #235 ) ;
#164 =( NAMED_UNIT ( * ) PLANE_ANGLE_UNIT ( ) SI_UNIT ( $, .RADIAN. ) );
#165 = AXIS2_PLACEMENT_3D ( 'NONE', #47, #64, #90 ) ;
#166 = PRESENTATION_STYLE_ASSIGNMENT (( #170 ) ) ;
#167 = CYLINDRICAL_SURFACE ( 'NONE', #120, 7.249999999999988454 ) ;
#168 = FACE_OUTER_BOUND ( 'NONE', #126, .T. ) ;
#169 = STYLED_ITEM ( 'NONE', ( #85 ), #123 ) ;
#170 = SURFACE_STYLE_USAGE ( .BOTH. , #94 ) ;
#171 = EDGE_LOOP ( 'NONE', ( #152 ) ) ;
#172 = FACE_OUTER_BOUND ( 'NONE', #70, .T. ) ;
#173 = CIRCLE ( 'NONE', #109, 7.249999999999991118 ) ;
#174 = DIRECTION ( 'NONE',  ( 1.836970198721027900E-17, 1.000000000000000000, -0.000000000000000000 ) ) ;
#175 = DIRECTION ( 'NONE',  ( -0.000000000000000000, -1.000000000000000000, -0.000000000000000000 ) ) ;
#176 = CARTESIAN_POINT ( 'NONE',  ( 1.285879139104719746E-16, 7.000000000000000888, 0.000000000000000000 ) ) ;
#177 = FILL_AREA_STYLE ('',( #135 ) ) ;
#178 = ADVANCED_FACE ( 'NONE', ( #24, #13 ), #185, .F. ) ;
#179 = COLOUR_RGB ( '',0.7529411764705882248, 0.7529411764705882248, 0.7529411764705882248 ) ;
#180 = MANIFOLD_SOLID_BREP ( 'M16x1.5 Gewindebohrung1', #147 ) ;
#181 = SURFACE_STYLE_USAGE ( .BOTH. , #48 ) ;
#182 =( NAMED_UNIT ( * ) SI_UNIT ( $, .STERADIAN. ) SOLID_ANGLE_UNIT ( ) );
#183 = AXIS2_PLACEMENT_3D ( 'NONE', #66, #84, #105 ) ;
#184 = STYLED_ITEM ( 'NONE', ( #8 ), #224 ) ;
#185 = PLANE ( 'NONE',  #87 ) ;
#186 = DIRECTION ( 'NONE',  ( 0.000000000000000000, 0.000000000000000000, -1.000000000000000000 ) ) ;
#187 = ORIENTED_EDGE ( 'NONE', *, *, #91, .T. ) ;
#188 = CYLINDRICAL_SURFACE ( 'NONE', #46, 8.999999999999998224 ) ;
#189 = EDGE_LOOP ( 'NONE', ( #73 ) ) ;
#190 =( GEOMETRIC_REPRESENTATION_CONTEXT ( 3 ) GLOBAL_UNCERTAINTY_ASSIGNED_CONTEXT ( ( #92 ) ) GLOBAL_UNIT_ASSIGNED_CONTEXT ( ( #45, #199, #83 ) ) REPRESENTATION_CONTEXT ( 'NONE', 'WORKASPACE' ) );
#191 = EDGE_LOOP ( 'NONE', ( #156 ) ) ;
#192 = FILL_AREA_STYLE_COLOUR ( '', #219 ) ;
#193 = CARTESIAN_POINT ( 'NONE',  ( 12.00000000000000000, 10.00000000000000000, 0.000000000000000000 ) ) ;
#194 = STYLED_ITEM ( 'NONE', ( #166 ), #180 ) ;
#195 = CARTESIAN_POINT ( 'NONE',  ( 0.000000000000000000, 0.000000000000000000, 0.000000000000000000 ) ) ;
#196 = CARTESIAN_POINT ( 'NONE',  ( -12.00000000000000000, 7.000000000000000888, 0.000000000000000000 ) ) ;
#197 = VERTEX_POINT ( 'NONE', #196 ) ;
#198 = CARTESIAN_POINT ( 'NONE',  ( 0.000000000000000000, -1.469576158976823356E-15, -0.000000000000000000 ) ) ;
#199 =( NAMED_UNIT ( * ) PLANE_ANGLE_UNIT ( ) SI_UNIT ( $, .RADIAN. ) );
#200 = DIRECTION ( 'NONE',  ( -1.000000000000000000, 0.000000000000000000, 0.000000000000000000 ) ) ;
#201 = VERTEX_POINT ( 'NONE', #159 ) ;
#202 = CIRCLE ( 'NONE', #165, 12.00000000000000000 ) ;
#203 = PRODUCT_DEFINITION_SHAPE ( 'NONE', 'NONE',  #112 ) ;
#204 = EDGE_CURVE ( 'NONE', #201, #201, #148, .T. ) ;
#205 = CIRCLE ( 'NONE', #93, 10.00000000000000178 ) ;
#206 = COLOUR_RGB ( '',0.7529411764705882248, 0.7529411764705882248, 0.7529411764705882248 ) ;
#207 =( LENGTH_UNIT ( ) NAMED_UNIT ( * ) SI_UNIT ( .MILLI., .METRE. ) );
#208 = ORIENTED_EDGE ( 'NONE', *, *, #127, .T. ) ;
#209 = ORIENTED_EDGE ( 'NONE', *, *, #74, .F. ) ;
#210 = FILL_AREA_STYLE_COLOUR ( '', #179 ) ;
#211 = EDGE_LOOP ( 'NONE', ( #30 ) ) ;
#212 = CARTESIAN_POINT ( 'NONE',  ( 1.836970198721027715E-16, 9.999999999999998224, 0.000000000000000000 ) ) ;
#213 = DIRECTION ( 'NONE',  ( 1.836970198721027900E-17, 1.000000000000000000, -0.000000000000000000 ) ) ;
#214 = DIRECTION ( 'NONE',  ( -0.000000000000000000, -1.000000000000000000, -0.000000000000000000 ) ) ;
#215 = CIRCLE ( 'NONE', #68, 8.999999999999998224 ) ;
#216 = VERTEX_POINT ( 'NONE', #239 ) ;
#217 = CARTESIAN_POINT ( 'NONE',  ( -12.00000000000000000, 10.00000000000000178, 0.000000000000000000 ) ) ;
#218 = DIRECTION ( 'NONE',  ( 1.000000000000000000, 0.000000000000000000, 0.000000000000000000 ) ) ;
#219 = COLOUR_RGB ( '',0.7529411764705882248, 0.7529411764705882248, 0.7529411764705882248 ) ;
#220 = SURFACE_STYLE_FILL_AREA ( #177 ) ;
#221 = SURFACE_STYLE_FILL_AREA ( #238 ) ;
#222 = CIRCLE ( 'NONE', #60, 7.249999999999988454 ) ;
#223 = DIRECTION ( 'NONE',  ( -1.000000000000000000, 1.836970198721027900E-17, 0.000000000000000000 ) ) ;
#224 = ADVANCED_FACE ( 'NONE', ( #153, #71 ), #167, .F. ) ;
#225 = UNCERTAINTY_MEASURE_WITH_UNIT (LENGTH_MEASURE( 1.000000000000000082E-05 ), #63, 'distance_accuracy_value', 'NONE');
#226 = AXIS2_PLACEMENT_3D ( 'NONE', #107, #49, #200 ) ;
#227 = SURFACE_STYLE_USAGE ( .BOTH. , #155 ) ;
#228 = VERTEX_POINT ( 'NONE', #33 ) ;
#229 = EDGE_LOOP ( 'NONE', ( #35 ) ) ;
#230 = EDGE_LOOP ( 'NONE', ( #98 ) ) ;
#231 = SURFACE_STYLE_FILL_AREA ( #125 ) ;
#232 = CARTESIAN_POINT ( 'NONE',  ( 1.836970198721027715E-16, 9.999999999999998224, 0.000000000000000000 ) ) ;
#233 = ADVANCED_FACE ( 'NONE', ( #172, #56 ), #188, .T. ) ;
#234 = FACE_BOUND ( 'NONE', #57, .T. ) ;
#235 = COLOUR_RGB ( '',0.7529411764705882248, 0.7529411764705882248, 0.7529411764705882248 ) ;
#236 = PRESENTATION_LAYER_ASSIGNMENT (  '', '', ( #169 ) ) ;
#237 = VERTEX_POINT ( 'NONE', #103 ) ;
#238 = FILL_AREA_STYLE ('',( #163 ) ) ;
#239 = CARTESIAN_POINT ( 'NONE',  ( 7.249999999999988454, 10.00000000000000000, 0.000000000000000000 ) ) ;
#240 = MECHANICAL_DESIGN_GEOMETRIC_PRESENTATION_REPRESENTATION (  '', ( #110 ), #136 ) ;
#241 = DIRECTION ( 'NONE',  ( 1.836970198721027900E-17, 1.000000000000000000, -0.000000000000000000 ) ) ;
#242 = PRODUCT ( '2089521', '2089521', '', ( #10 ) ) ;
#243 = FACE_OUTER_BOUND ( 'NONE', #229, .T. ) ;
#244 = DIRECTION ( 'NONE',  ( -1.000000000000000000, 1.836970198721027900E-17, 0.000000000000000000 ) ) ;
ENDSEC;
END-ISO-10303-21;
